Music by Senescence

The Forgotten Sunrise
By Amorphis from the album "Tales From the Thousand Lakes"

Guitar Tablature

Tune down 1/2 a step.

Just listen to the song for rhythm.


 Riff A              Riff B             Riff C
E-----7-------------|----5-------------|----3----------------2----7-------
B--5-----5--8--7--8-|-3-----3--7--5--7-|-1-----1--5--3--5-0----0-----8--7-
G-------------------|------------------|----------------------------------
D-------------------|------------------|----------------------------------
A-------------------|------------------|----------------------------------
E-------------------|------------------|----------------------------------

 Riff D               Riff E               Riff F
E-----11-------------|----9--------------|----7----------------7----11------
B--9-----9--12-11-12-|-7-----7--11-9--11-|-5-----5--9--8--9-5----5-----12-11
G--------------------|-------------------|----------------------------------
D--------------------|-------------------|----------------------------------
A--------------------|-------------------|----------------------------------
E--------------------|-------------------|----------------------------------

The song goes:
Riff A(2X)
Riff B(2X)
Riff C
Riff A
fret 7 of G
Riff A(2X)
Riff B(2X)
Riff C
Riff A
fret 5 of B
Riff D(2X)
Riff E(2X)
Riff F
fret 11 of G
Riff D(2X)
Riff E(2X)
Riff F(2X)

This is it, I haven't figured the rhythm guitar because I mainly play
lead guitar and so I don't need it. I'll try to tab the rest of the song soon.

Transcribed by João Pedro de Magalhães

Copyright © 2002 by Senescence. Some rights reserved.

music.senescence.info News About senescence Songs Tabs Links Contact