Music by Senescence

Black Diamond and Coming Home
By Stratovarius from the album "Visions"

Guitar Tablature

 				Black Diamond

This is — or is supposed to be — the lead part he plays in the keyboard.
                                                
E-----5--3--5-----5-----5--|-Repeat once-|-----6--5--6-----6----6-----
B--3-----------6-----5-----|-------------|--5-----------8----6--------
G--------------------------|--previous---|----------------------------
D--------------------------|-------------|----------------------------
A--------------------------|-----Bar-----|----------------------------
E--------------------------|-------------|----------------------------

E-|-Repeat once-|-----3--1--3-----3-----3-|----3--1--3--0--1--3--6--5--
B-|-------------|--1-----------5-----3----|-1--------------------------
G-|---previous--|-------------------------|----------------------------
D-|-------------|-------------------------|----------------------------
A-|-----Bar-----|-------------------------|----------------------------
E-|-------------|-------------------------|----------------------------

Go back to the start and don't play the first note.

				Coming Home

        Bar 1            Bar 2    
                                                
E--3-|-3--2--0--------|--------------------|--------------0--3--2--
B----|----------3--0--|--3--5--5--3--1--0--|--1--1--0--------------
G----|----------------|--------------------|-----------2-----------
D----|----------------|--------------------|-----------------------
A----|----------------|--------------------|-----------------------
E----|----------------|--------------------|-----------------------

     P  P	
E--3--2--0-----|--0--2--3--Repeat---|--------------0--3--5--
B-----------3--|--------------------|--1--1--0--------------    Repeat 
G--------------|------------Bar 1-&-|-----------2-----------
D--------------|--------------------|-----------------------  everything
A--------------|------------Bar 2---|-----------------------
E--------------|--------------------|-----------------------from the start

   Bar 3

E--3--3--3--2--5--3--2--0--|--Repeat Bar 3-|-2--0--3--2--0--
B--------------------------|---two times---|----------------
G--------------------------|---------------|----------------
D--------------------------|---------------|----------------
A--------------------------|---------------|----------------
E--------------------------|---------------|----------------

I know this is far from perfect, but it's good enough to sing along — I
tabbed this in a short time, so it's normal not being perfect. Also, he
doesn't play the second part — Bar 3 and following —, I usually do so
because I think it fits.

Transcribed by João Pedro de Magalhães

Copyright © 2002 by Senescence. Some rights reserved.

music.senescence.info News About senescence Songs Tabs Links Contact