Music by Senescence

Recercada Quinta Sobre El Passamezzo Antiguo
By Diego Ortiz

Guitar Tablature


E------8-10---------------8------------8-10----------------------|----------
B-8-11------8-10----10-11---10-11-8-11------8-10-------8-10----8-|----------
G----------------10---------------------------------11------11---|----------
D------------------------------------------------12--------------|----------
A----------------------------------------------------------------|----------
E----------------------------------------------------------------|----------

E-10------10-8-------8-------8---------10------------------------------|----
B----11-8------11-10---10------11-10-8----11-8-11-10-8-7-10-7-8-10-7-8-|----
G-------------------------10-------------------------------------------|----
D----------------------------------------------------------------------|----
A----------------------------------------------------------------------|----
E----------------------------------------------------------------------|----

E-10-8---------------8-----------------10-8-------------------------------
B------11-10-8-11-10---11-10-8----10-8------11-10-8-11-10-8-7-------7-----
G------------------------------10-----------------------------9-7-9---9-7-
D-------------------------------------------------------------------------
A-------------------------------------------------------------------------
E-------------------------------------------------------------------------


E----------------|-10----10-8---------------8-10-8----------8-10-12-13------
B----------------|----11------11-10-8-10-11--------11-10-11-----------------
G----7-----------|----------------------------------------------------------
D-10---10-8-7----|----------------------------------------------------------
A-------------10-|----------------------------------------------------------
E----------------|----------------------------------------------------------

E-8----8-------------------------8-10-8-------|-10---------------10--------
B---10---11-10-8---------8-10-11--------10-11-|----11-8-10----------11-8---
G---------------10-9-10-----------------------|------------11--------------
D---------------------------------------------|---------------12-----------
A---------------------------------------------|----------------------------
E---------------------------------------------|----------------------------

E-8-------|-10----------8-10------------------------------------------------
B---10----|----11-10-11------11-8-10-11-8-10-10-7---7-8-10-7---7-8-10-7-8-8-
G------10-|---------------------------------------9----------9--------------
D---------|-----------------------------------------------------------------
A---------|-----------------------------------------------------------------
E---------|-----------------------------------------------------------------

E-------8-10----8-10-12-13------------8------------8---------|-------8-10----
B-10-11------11---------------8-10-11---10-8-10-11---10-11-8-|-10-11------11-
G--------------------------10--------------------------------|---------------
D------------------------------------------------------------|---------------
A------------------------------------------------------------|---------------
E------------------------------------------------------------|---------------

E-------8-10-12-14-10-12-14-15-17-10-12-14-15-17-14-15-|-10----10-8-------
B-10-11------------------------------------------------|----11------11-10-
G------------------------------------------------------|------------------
D------------------------------------------------------|------------------
A------------------------------------------------------|------------------
E------------------------------------------------------|------------------

E---------------8-10----8-8----8-------------------------8-------|-10------
B-11-10-8-10-11------11-----10---11-10-8-10-8----8-10-11---10-11-|----11-8-
G---------------------------------------------10-----------------|---------
D----------------------------------------------------------------|---------
A----------------------------------------------------------------|---------
E----------------------------------------------------------------|---------

E-10-15-10----------10----10------10------------8-10-12-13----------------
B----------10----------10----11-8----11-8-10-11------------------8-10-11--
G-------------11-------------------------------------------10-10----------
D----------------12-------------------------------------------------------
A-------------------------------------------------------------------------
E-------------------------------------------------------------------------

E-8----------8-----------------8-10-------8-10-12-14-10-10-12-14-15-17-14-
B---10-10-11---10-11-8-8-10-11------11-11---------------------------------
G-------------------------------------------------------------------------
D-------------------------------------------------------------------------
A-------------------------------------------------------------------------
E-------------------------------------------------------------------------

E-14-15-17-14-15-|---------8-10-8--------------------8-10-8----------8-10-
B----------------|-8-10-11--------11-10-8----8-10-11--------11-10-11------
G----------------|------------------------10------------------------------
D----------------|--------------------------------------------------------
A----------------|--------------------------------------------------------
E----------------|--------------------------------------------------------

E----8----------8-10-8-------------------------8---------------8-------8--
B-11---11-10-11--------11-10-8---------8-10-11---11-10-8-10-11---10-11----
G------------------------------10-9-10------------------------------------
D-------------------------------------------------------------------------
A-------------------------------------------------------------------------
E-------------------------------------------------------------------------

E-10-11-10-8---------15-13-11-10-8----------------------------------------
B------------11-10-8---------------11-10-8-10-11-10-8-7-8---7-------------
G---------------------------------------------------------9---9-7----7----
D-----------------------------------------------------------------10------
A-------------------------------------------------------------------------
E-------------------------------------------------------------------------

E--10-8-------------------------------------------------------------------
B-------11-10-8-10-11-10-8-7----------------------------------------------
G----------------------------9-7----7-8-7---------------------------------
D--------------------------------10-------10-8-7--------------------------
A------------------------------------------------10-----------------------
E-------------------------------------------------------------------------

Transcribed by João Pedro de Magalhães

Copyright © 2005 by Senescence. Some rights reserved.

music.senescence.info News About senescence Songs Tabs Links Contact