Music by Senescence

Garden of Lamentation
By Virgin Steele from the album "The House of Atreus Act I"

Guitar Tablature


  Riff 1                  Skies...    Riff 2 (I remember you...)
E-----------------------------------|-------------------------------------
B-----------------------------------|-----------3-------------------------
G-----------2-----------2-----------|-----4---0---------------------------
D-----4---0-------4---0------Riff 1-|---2-----------------Riff 2----------
A---2-----------2-------------4x----|-0-----3--------------1x-------------
E-0-----3-----0-----3---------------|-------------------------------------

  Riff 3 (You were fair...)               Flames...
E-------------------------------------------------------------------------
B-------------------------------------------------------------------------
G----------------------------------------------------2--------------------
D-----7---9-----7---9-----5---7-----5---7-----4----0------Riff 1 again----
A-5-----5---5-----5---3-----3---3-----3-----2-----------------5x----------
E---3---------3---------1---------1-------0------3------------------------

  Bridge (I recall...)
E-------------------------------------------------------------------------
B-------------------------------------------------------------------------
G-------------------------------2-----------2-----4-----2-----------------
D-----2---5-----2---5-----4---0-------4---0-----2-----0---Riff 2 again----
A-3-----3---3-----3-----2-----------2---------0---------------1x----------
E---3---------3-------0-----3-----0-----3-----------3---------------------

  Fair...
E-------------------------------------------------------
B-------------------------------------------------------
G-----2---4---------------------------------------------
D-0-----0----Riff 3 again---Then back to Riff 1---------
A----------------1x---------------2x--------------------
E---3---------------------------------------------------

Note: I'm not sure about Riff 3.

If you're a bit bored afterwars, you can always play the Klytemnestra part of
Agony and Shame out loud.

  Gods of war...
E-----------5-------------5--------------------
B-5---5-7-8---5-5-5-7-8-8---7---8-7-5---5------
G---7-------------------------7-------7--------
D----------------------------------------------
A----------------------------------------------
E----------------------------------------------

Transcribed by João Pedro de Magalhães

Copyright © 2002 by Senescence. Some rights reserved.

music.senescence.info News About senescence Songs Tabs Links Contact