Music by Senescence

Fiddler on the Green
By Demons & Wizards from the album "Demons & Wizards"

Guitar Tablature


Tune down 1/2 a step.
      
Riff 1 
E-------------------------------------------------------------------------
B-----------1--------0--------0-----------------1--------3--------0-------
G--------2-----2--------2--------2-----------2-----2--------2--------2----
D-----2-----------2--------2--------2-----2-----------2--------2--------2-
A--0-----------------------------------0----------------------------------
E-------------------------------------------------------------------------
                                                                  1st time
E----------------------------------------------------------------|---------
B-----------1--------0--------0-----------------1--------3-------|-1-------
G--------2-----2--------2--------2-----------0-----0--------0----|----0----
D-----2-----------2--------2--------2-----2-----------2--------2-|-------2-
A--0-----------------------------------3-------------------------|---------
E----------------------------------------------------------------|---------

   2nd time
E-------------
B--0----------
G-----0-------
D--------2----
A-------------
E-------------

Riff 1 2X for Intro then 2X for Sad voices . . .


Went out and started her day
                         Am
						 
               C          G
Wasn't there a dream last night 

                    Am
Like a spring never ending


Still the water runs clear 

           C
Through my mind

       G                 Am
On the field I can see a fiddler

                   C             G   Am
The fiddler on the green and the sad boy

               C
I took him too early

          G
Would you mind 

          Dm
Would you mind

          G
Would you mind
If I take you

And then restart.

Finally, the solo (Clean guitar)

        repeat 2X        1st time   2nd
E---------------------|------------|----|-------------------------------------
B---------------------|------------|----|-5--5--5--5-----5--3--3--5--3--------
G-2--2--4--5-----5--4-|-4--5--4--2-|--5-|-------------5-----------------5-----
D-------------5-------|------------|----|-------------------------------------
A---------------------|------------|----|-------------------------------------
E---------------------|------------|----|-------------------------------------

              								 
E----------------------5--5--7--8--7--5--------------------------------------
B-5--5--5--5-----5--3--------------------8--6--8--6--5--6--5--3--5--3-----3--
G-------------5--------------------------------------------------------5-----
D--------------------------------------------------5-------------------------
A----------------------------------------------------------------------------
E----------------------------------------------------------------------------

E--------------
B----------5---
G-5--4--2------
D--------------
A--------------
E--------------

The part with distortion

E----------------------------------------------------------------------------
-----------------------------------------------------------------------------
G--2--2--4--5-----5--4--4--5--4--2-------------------------------------------
D--2--2--4--5--5--5--4--4--5--4--2-------------------------------------------
A--0--0--2--3--5--3--2--2--3--2--0-------------------------------------------
E--------------3-------------------------------------------------------------

I don't know the second solo

Transcribed by João Pedro de Magalhães

Copyright © 2002 by Senescence. Some rights reserved.

music.senescence.info News About senescence Songs Tabs Links Contact